Theme Music

Theme Music - Harry Potter-Nimbus 2 guitar tab

e ---0-0-0-0-0-0----0---1---0------0----------------------------------------------

B ---------------4-------------4------1---3---3--2---3-------------1------4-------

G ---------------------------------------------------------------------2--------------

D ----------------------------------------------------------3--2-----------------

A -----------------------------------------------------------------------------------

E -----------------------------------------------------------------------------------

e ---0-0-0-0-0-0------0---3--1--0--1---------1--0------0-------------------------------

B -----------------4---------------------------------------4----------1---0--------------

G ----------------------------------------3---------------------2---------------------

D ----------------------------------------------------------------------------2----

A -----------------------------------------------------------------------------------

E -----------------------------------------------------------------------------------

repeat

e ----------------------------0-----------------------0-----------------------------------

B ---1--0--1--3--1--0--1--3------1--0--1--3--1--3-------------1--0--1--3--1--3------------

G -------------------------------------------------------------------------------------------

D --------------------------------------------------------2------------------------------

A ------------------------------------------------------------------------------------------

E -----------------------------------------------------------------------------------------

e -------1--3-----------------0--1--0--1--3-------------------------------------------------

B ---4---------4--3--4---3------------------------------------------------------------------

G -----------------------------------------------------0--1--0--------------------0----------

D -------------------------------------------------3-------------3--1--0--1--3-------3--1-----

A ---------------------------------------------------------------------------------------------

E -----------------------------------------------------------------------------------------------

e ----------------------------------------------------------0-0-0-0-0-0-------0---1--0--------

B ------------------------------------------1---0--------------------------4------------------

G ---------------------------0--1---0-----------------------------------------------------------

D ---0----0--1--0--3--------------3-----------------2--------------------------------------

A ----------3--------------------------------------------------------------------------------

E -------------------------------------------------------------------------------------------

e -------0----------------------------------------0-0-0-0-0-0------0--3--1--0--1-----------

B ---4------1--3--3--2--3---------------1--4--------------------4-----------------------------

G -----------------------------------2-------------------------------------------------3-----

D ----------------------------3--2----------------------------------------------------------

A ---------------------------------------------------------------------------------------------

E -------------------------------------------------------------------------------------------

e ----1--0-------0----------------------------------------------------------------------

B -----------4--------------1---0----0---------------------------------------------------

G ---------------------2-------------------2--------------------------------------------

D -----------------------------------------------------------------------------------

A -----------------------------------------------------------------------------------

E -----------------------------------------------------------------------------------

Fin

Get this song at:  amazon.com sheetmusicplus.com

Share your thoughts

0 Comments found