Theme Music

Theme Music - Harry Potter - Hedwigs Theme guitar tab

tabs-database.com[http://www.tabs-database.com.com/]

|----0---3-2-0--7--5---2--0--3-2-----2----|

|-0-------------------------------3-----0-|

|-----------------------------------------|

|-----------------------------------------|

|-----------------------------------------|

|-----------------------------------------|

|----0---3-2-0--7--10--9--8--5--8--7-6--5s2--3--0-|

|-0-----------------------------------------------|

|-------------------------------------------------|

|-------------------------------------------------|

|-------------------------------------------------|

|-------------------------------------------------|

|-3--7--3--7--3--8--7--6--2--3--8-7-6--2--7-|

|-------------------------------------------|

|-------------------------------------------|

|-------------------------------------------|

|-------------------------------------------|

|-------------------------------------------|

|-3--7--3--7--3--10--9--8--5--8---7-6--5s2--3--0-|

|------------------------------------------------|

|------------------------------------------------|

|------------------------------------------------|

|------------------------------------------------|

|------------------------------------------------|

s - slide

Tabbed by Thomas Ricardo Adamo Cava (Cava41)

Added by tabs-database.com and our distinguished partners

Get this song at:  amazon.com sheetmusicplus.com

Share your thoughts

0 Comments found