Theme Music

Theme Music - Harry Bo guitar tab

tabs-database.com[http://www.tabs-database.com.com/]

This Song Is ROUGHF and i only done it for a laughf.

-7-7---7-9-7----------------

-----9-------9--7-7---7-9-9-

--------------------9-------

----------------------------

----------------------------

----------------------------

----------------------------

-7-7--7-9-7-----------------

-----9------9-7-7----7-9-9--

-------------------9--------

----------------------------

----------------------------

You can woek the rest out for me.

----------------------------

----------------------------

----------------------------

----------------------------

----------------------------

----------------------------

Added by tabs-database.com and our distinguished partners

Get this song at:  amazon.com sheetmusicplus.com

Share your thoughts

0 Comments found