Theme Music

Theme Music - Happy Birthday With A Rock Twist guitar tab

tabs-database.com[http://www.tabs-database.com.com/]

Guitar

Happy Birthday With A Rock Twist

Chris Chin

------------------------------------------------

-----------8sb-7-------------8/10--8------------

--7-7--9-7---------7-7--9-7---------------------

------------------------------------------------

------------------------------------------------

------------------------------------------------

---------10b---7---------------8-8-7------------

----------------------8-7----------------8--10~~

--7-7----------------------9~~~~~---------------

------------------------------------------------

------------------------------------------------

------------------------------------------------

Hold the 10 for a while, then shout "1, 2, 3, 4"

------------------------------------------------

------------------------------------------------

--6666666----------8888888----------------------

--6666666-6666666--8888888-66666666------------- X4

--4444444-6666666--6666666-66666666-------------

----------4444444----------44444444-------------

------------------------------------------------

------------------------------------------------

-1010101010---66666666--88888888----------------

-1010101010---66666666--88888888--66666666------ X1

-8-8-8-8-8----44444444--66666666--66666666------

----------------------------------44444444------

Added by tabs-database.com and our distinguished partners

Get this song at:  amazon.com sheetmusicplus.com

Share your thoughts

0 Comments found