Theme Music

Theme Music - Halo 2 Theme guitar tab

tabs-database.com[http://www.tabs-database.com.com/]

Halo 2 Theme

great game, great song

e---------------------------------------------------------10/-------------------

B-------------------------------------------------------------------------------

G---3/9---9--11--12--14- 12--11--12--11-----12---9------------------------------

D---------------------------------------12--------------------------------------

A-------------------------------------------------------------------------------

E-------------------------------------------------------------------------------

you can play around with it, it sounds good with a volume swell at the start too

second part

e-----------------------------------------------------------------

B-----------------------------------------------------------------

G-9--x-x-x--11-x-x-x--12-x--x--x-14-------------------------------

D-9--x-x-x--11-x-x-x--12-x--x--x-14-------------------------------

A-7--x-x-x--9--x-x-x--10-x--x--x-12-------------------------------

E-----------------------------------------------------------------

play that a few times then on the last rime slide down from the last chord to end the song

Corrections are welcome

please rate

Added by tabs-database.com and our distinguished partners

Get this song at:  amazon.com sheetmusicplus.com

Share your thoughts

0 Comments found