Theme Music

Theme Music - Halloween Theme guitar tab

tabs-database.com[http://www.tabs-database.com.com/]

mxtabs.net

song- halloween theme

tabbed by- shwingin56

|------------------------------|\\

|------------------------------| \\

|------------------------------| \\ x4

|------------------------------| /

|-----77---77---7----7---7-----| /

|---9----9----9---10---9-------|/

|---------------------------------| \\

|---------------------------------| \\

|---------------------------------| \\

|---------------------------------| x4

|-----55---55---5---5---5---------| /

|---7----7----7---8---7-----------| /

this is a cool song and its easy so please rate!!!!!!!!!!!!!!!!!!!!!

Added by tabs-database.com and our distinguished partners

Get this song at:  amazon.com

Share your thoughts

0 Comments found