Theme Music

Theme Music - GTA Go For A Joyride guitar tab

Music X Tabs [http://www.mxtabs.net]

The guitar part is very simple there is only three different chords in this song which is repeated throughout

Standard tuning

--------------------------------------------------------------

--------------------------------------------------------------

--------------------------------------------------------------

9-9-9-9-9-9-9-9-9-9-9-9-9-5-5-5-5-5-4-4-4-4-4-4-4 9-9-9-9-9-9-9-9-9-9-9-9-9-5-5-5-5-5-4-4-4-4-4-4-4

7-7-7-7-7-7-7-7-7-7-7-7-7-3-3-3-3-3-2-2-2-2-2-2-2

this is my first tab but all the same it is correct it can be played in drop D which is easier

--------------------------------------------------------------

--------------------------------------------------------------

--------------------------------------------------------------

-7-7-7-7-7-7-7-7-7-7-7-7-7-3-3-3-3-3-2-2-2-2-2-2-2

-7-7-7-7-7-7-7-7-7-7-7-7-7-3-3-3-3-3-2-2-2-2-2-2-2

-7-7-7-7-7-7-7-7-7-7-7-7-7-3-3-3-3-3-2-2-2-2-2-2-2

Sounds awsome!

Added by tabs-database.com and our distinguished partners

Get this song at:  amazon.com sheetmusicplus.com

Share your thoughts

0 Comments found