Theme Music

Theme Music - Green Sleeves guitar tab

tabs-database.com[http://www.tabs-database.com.com/]

Hi, theres only one thing u need to know.

The Cords With the / over them means pick them individually so its sounds like a strum.

The rest just play normally.

/ /

e|-------0-2-0---------------------------|

B|---1-3-1-----3-0-----0-1---------0-----|

G|-2-2---0-----0---0-2---2-2-2-0-2-0-0---|

D|---2---------0---0-----2---2-----2---2-|

A|---0---3---------------0---0-----------|

E|--------------3---3--------------0---0-|

/ /

e|-------0-2-0---------------------------|

B|---1-3-1-----3-0-----0-1-0-------------|

G|-2-2---0-----0---0-2---2---2-1---1-2-2-|

D|---2---------0---0-----2-------4---2-2-|

A|---0---3---------------0-----------0-0-|

E|-------------3---3-----------0---------|

/ /

e|-3-3-2-0---------------------------|

B|-0-1-----3-0-----0-1---------0-----|

G|-0-0-----0---0-2---2-2-2-0-2-0-0---|

D|---------0---0-----2---2-----2---2-|

A|---3---------------0---0-----------|

E|-3-------3---3---------------0---0-|

/ /

e|-3-3-2-0---------------------------|

B|-0-1-----3-0-----0-1-0-------------|

G|-0-0-----0---0-2---2---2-1---1-2-2-|

D|---------0---0-----2-------4---2-2-|

A|---3---------------0-----------0-0-|

E|-3-------3---3-----------0---------|

/ /

e|-------0-2-0---------------------------|

B|---1-3-1-----3-0-----0-1---------0-----|

G|-2-2---0-----0---0-2---2-2-2-0-2-0-0---|

D|---2---------0---0-----2---2-----2---2-|

A|---0---3---------------0---0-----------|

E|-------------3---3---------------0---0-|

/ / /

e|-------0-2-0-------------------------|

B|---1-3-1-----3-0-----0-1-0-----------|

G|-2-2---0-----0---0-2---2---2-1---1-2-|

D|---2---------0---0-----2-------4---2-|

A|---0---3---------------0-----------4-|

E|-------------3---3-----------0-----5-|

Added by tabs-database.com and our distinguished partners

Get this song at:  amazon.com sheetmusicplus.com

Share your thoughts

0 Comments found