Theme Music

Theme Music - Gladiator Song guitar tab

tabs-database.com[http://www.tabs-database.com.com/]

Gladiator Song

Here it is. Pretty ez song to tab. The ending might not sound right in verse 2 because I did the background music for that part.

verse 1

-----------------------------------------------------------------------

-----------------------------------------------------------------------

-----------------------------------------------------------------------

---0-2-3-2-0---0-2-3-2--------3-5-7-5-3---3-5-7-5--------5-5-7-8-7-5---

-0--------------------------3------------------------------------------

-----------------------------------------------------------------------

--------------------------------------------- I listened to the 1st

--------------------------------------------- scene in the movie to

--------------------------------------------- get this whole tab.

-0-0-2-3--5—7---0-2-3-2-0---5-3-2---7-3-0—3-2 Listen so u no how long

--------------0------------------------------ to hold certain notes.

---------------------------------------------

verse 2 basically same as verse 1 except for the ending.

-----------------------------------------------------------------------

-----------------------------------------------------------------------

-----------------------------------------------------------------------

---0-2-3-2-0---0-2-3-2--------3-5-7-5-3---3-5-7-5--------5-5-7-8-7-5---

-0--------------------------3------------------------------------------

-----------------------------------------------------------------------

-------------------0-1-0----------5-5-2-3-------0-1--------------------

---------------3-3-------3--1----------------3-3----------1-1-3-4---3-1

---------0-2-----------------------------------------------------------

-0-0-2-3---------------------------------------------------------------

-----------------------------------------------------------------------

-----------------------------------------------------------------------

That’s it.Please put ur coments in the corrections If anyone can figure out the high notes for the end of verse 2 please post it in the corrections also. Again this is the 1st scene in the movie

Added by tabs-database.com and our distinguished partners

Get this song at:  amazon.com sheetmusicplus.com

Share your thoughts

0 Comments found