Theme Music

Theme Music - Fur Elise guitar tab

tabs-database.com[http://www.tabs-database.com.com/]

E|--12-11--12--11--12----10---------0--5--7---0--7--8---------------------

B|--------------------12----13--10----------------------------------------

G|------------------------------------------------------------------------

D|------------------------------------------------------------------------

A|------------------------------------------------------------------------

E|------------------------------------------------------------------------

E|--12-11--12--11--12----10---------0--5--7---8--7--5---------------------

B|--------------------12----13--10----------------------------------------

G|------------------------------------------------------------------------

D|------------------------------------------------------------------------

A|------------------------------------------------------------------------

E|------------------------------------------------------------------------

E|-5--5--12--13--12-10--12--10--8--10--8--7--0--0--0--12--0--12--0-12-----

B|------------------------------------------------------------------------

G|------------------------------------------------------------------------

D|------------------------------------------------------------------------

A|------------------------------------------------------------------------

E|------------------------------------------------------------------------

Repeat as needed

Added by tabs-database.com and our distinguished partners

Get this song at:  amazon.com sheetmusicplus.com

Share your thoughts

0 Comments found