Theme Music

Theme Music - Friends Theme Song guitar tab

tabs-database.com[http://www.tabs-database.com.com/]

Hello everyone. This song was very tricky to get down. I’ve seen some good versions, but

none of them were complete. My version is 100% correct and is only missing one part,

(the lick at the very end of the song). If you could rate please, I’d be very happy!

INTRO

e|--------------------------------------------|

b|----------2-2p0-----------------------------|

g|-----------------2-0-0-2h4-2----------------| X2

d|--------------------------------------------|

a|------0-------------------------------------|

E|--------------------------------------------|

VERSE(played simultaneously while chords are played)

A G

#1) So no one told you life was gonna be this way

e|-------------------------------------------------------|

b|---------------0--3--2--0------------0-0---------------|

g|----2------2---------------2-2----2-------2------------|

d|---------2----------------------2----------------------|

a|-------------------------------------------------------|

E|-------------------------------------------------------|

A C#m

#2) Your job\\'s a joke, you\\'re broke, your love life\\'s D.O.A.

e|-------------------------------0-------------|

b|---------0-3-2-0----3-2-0--------------------|

g|------2-----------2--------2-----------------|

d|---2-----------------------------------------|

a|---------------------------------------------|

E|---------------------------------------------|

G Bm A G

#3) It\\'s like you\\'re always stuck in second gear, When it hasn\\'t been your

D E

day, your week, your month, or even your year but

e|------------------------------------------------------------------------------------|

b|-0-3-3-3-3-3-3-2-2-(pause)-----0-2-3-3-3-3-2-0-------------0h2p0--------------------|

g|----------------------------------------------------2-2-----2----------2------------|

d|---------------------------------------------------------2--------------------------|

a|------------------------------------------------------------------------------------|

E|------------------------------------------------------------------------------------|

(Chorus)

A D E

I\\'ll be there for you (When the rain starts to pour)

A D E

I\\'ll be there for you (Like I\\'ve been there before)

A D E G

I\\'ll be there for you (\\'Cause you\\'re there for me too)

As for the outro, I can’t quite put a finger on it. Any help would be appreciated.

enjoi~~

easylistener

Added by tabs-database.com and our distinguished partners

Get this song at:  amazon.com sheetmusicplus.com

Share your thoughts

0 Comments found