Theme Music

Theme Music - Friends Theme guitar tab

tabs-database.com[http://www.tabs-database.com.com/]

Title: Friends Theme

Artist: Theme Song

Tabbed By: Smallfry645 (webmaster at tabs-database.com.com)

Good show, good theme song. Enjoy.

E-------------------------------------|----------------------------------------|

B-----------3--2----------------------|-----------3--2-----------3--2--------5-|

G--2--2--4--------4--2--2--0--2--4--4-|--2--2--4--------4--2--2--------4--2----|

D-------------------------------------|----------------------------------------|

A-------------------------------------|----------------------------------------|

E-------------------------------------|----------------------------------------|

E-----------------------|-------------------------------------------|

B--3-3-3-3-3-3-3-3-2--2-|--0-2--3-3-3-3-3--2-----------------2------|

G-----------------------|---------------------4--2-2-----2-4---4--2-|

D-----------------------|-----------------------------4-------------|

A-----------------------|-------------------------------------------|

E-----------------------|-------------------------------------------|

E-------------------------------------------|-------------------------------------------|

B--5--5--5--7--5-----2--3--3--3--3--2-------|--5--5--5--7--5-----2--3--3--3--3--2-------|

G-----------------4--------------------4--2-|-----------------4--------------------4--2-|

D-------------------------------------------|-------------------------------------------|

A-------------------------------------------|-------------------------------------------|

E-------------------------------------------|-------------------------------------------|

E---------------------------------------------|

B--5--5--5--7--5-----2--3--3--3--3--2---------|

G-----------------4--------------------4--(2)-| Hold Last Note

D---------------------------------------------|

A---------------------------------------------|

E---------------------------------------------|

Added by tabs-database.com and our distinguished partners

Get this song at:  amazon.com

Share your thoughts

0 Comments found