Theme Music

Theme Music - Fraggle Rokc guitar tab

tabs-database.com[http://www.tabs-database.com.com/]

This show rocks, and i've heard other tabs of this and this sounds perfect to me

Intro/verses:

e|-----------------------------------------------------------|

B|-----------------------------------------------------------|

G|---------------------------------------2-------0-0-2-3-4---|

D|---------2-------4-4-4-2-4-----0-2-4-0---4-2-0-------------|

A|-0-2-4-0---4-2-0-------------------------------------------|

E|-----------------------------------------------------------|

Chorus:

e|-----------------------------------------------------|

B|---------------------5-3-----------------------------|

G|-5-5-5-5-2---4-4-2-0-----5---5-5-5-5-2---4-4-2-4-5---| Goes along with singing

D|-----------------------------------------------------|

A|-----------------------------------------------------|

E|-----------------------------------------------------|

Added by tabs-database.com and our distinguished partners

Get this song at:  amazon.com

Share your thoughts

0 Comments found