Theme Music

Theme Music - Ford Truck Song guitar tab

tabs-database.com[http://www.tabs-database.com.com/]

Tuning:Drop E,A,D,G,B,E

|--------------------------------------------|

|--------------------------------------------|

|--------------------------------------------|

|--------------------------------------------|

|-0-0-2-00-3-00-5-0000-----------------------|

|-0-0-2-00-3-00-5-0000-----------------------|

|--------------------------------------------|

|--------------------------------------------|

|--------------------------------------------|

|--------------------------------------------|

|-0-0-2-00-3-00-5-0000-----------------------|

|-0-0-2-00-3-00-5-0000-----------------------|

It just repeats this throughout the commercial.

Added by tabs-database.com and our distinguished partners

Get this song at:  amazon.com sheetmusicplus.com

Share your thoughts

0 Comments found