Theme Music

Theme Music - Flinstones Theme guitar tab

tabs-database.com[http://www.tabs-database.com.com/]

The Flinstones theme song

I did this all by ear. It sounds right.

Tabbed by : Gabe Xerri (subb)

e---------10---------------------------------------------------------------------

B-10----------12-10---------10--------------------10-----------------------------

G--------------------------------12-11-11----12----------------9-11--------------

D------12--------------12--------------------------------12----------------------

A--------------------------------------------------------------------------------

E--------------------------------------------------------------------------------

e---------10---------------------------------------------------------------------

B-10----------12-10---------10--------------------10-----------------------------

G--------------------------------12-11-11----12----------------9-----------------

D------12--------------12--------------------------------12-------12-------------

A--------------------------------------------------------------------------------

E--------------------------------------------------------------------------------

e-9------10----9--9----------9-------|-----9------------------------------------

B---------------------12-12------12--|-12-----12-12-10-10-12-10-----------------

G---11-------------------------------|-------9----------------------------------

D------------------------------------|------------------------------------------

A------------------------------------|------------------------------------------

E------------------------------------|------------------------------------------

e---------10---------------------------------------------------------------------

B-10----------12-10---------10--------------------10-----------------------------

G--------------------------------12-11-11----12----------------9----------------

D------12--------------12--------------------------------12----------------------

A--------------------------------------------------------------------------------

E--------------------------------------------------------------------------------

e----------------------------------10--12---10-----------------------------------

B-------10--------------------10-------------------------------------------------

G-11-12--------9---11----12------------------------------------------------------

D----------12--------------------------------------------------------------------

A--------------------------------------------------------------------------------

E--------------------------------------------------------------------------------

Added by tabs-database.com and our distinguished partners

Get this song at:  amazon.com sheetmusicplus.com

Share your thoughts

0 Comments found