Theme Music

Theme Music - Final Fantasy X - Leaving Besaid guitar tab

tabs-database.com[http://www.tabs-database.com.com/]

nice short one here folks, but sounds kool. try repeating over again but with sum effects, overdrive and a lot of base the second time round. try hammering and sliding a couple of the notes for better sound.

--------6---------------------6-10--6-8-6---

--4-6-8---6---8-6-4---4---6-8-------------8-6 have some light overdrive on and play a bit faster than usual

--------------------5------------------------

---------------------------------------------

---------------------------------------------

---------------------------------------------

--------6---------------------6-10--6-8-6----

--4-6-8---6---8-6-4---4---6-8-------------8-6 on this bit turn up the bass and whack off the distortion

--------------------5------------------------ (use a pedal if poss)

---------------------------------------------

---------------------------------------------

---------------------------------------------

Added by tabs-database.com and our distinguished partners

Get this song at:  amazon.com sheetmusicplus.com

Share your thoughts

0 Comments found