Theme Music

Theme Music - Final Fantasy 9 - Vamo Allo Flamenco guitar tab

tabs-database.com[http://www.tabs-database.com.com/]

E--------------------------------------------

B--------1-0---0---------------1-0---3-0-----

G--2-1-2-----2---0-------2-1-2-----2-----0---

D------------------2-4-5---------------------

A--------------------------------------------

E--------------------------------------------

E--------0----------------------------

B--1-0-1---3-1-3-0-------1--0---------

G------------------0-2-4-------2-1-2--

D-------------------------------------

A-------------------------------------

E-------------------------------------

This is the song that plays during the fight sequence during the play in the beginning, and whenever you play chocobo hot and cold.

E--------------------------------------------

B--------1-0---0---------------1-0---3-0-----

G--2-1-2-----2---0-------2-1-2-----2-----0---

D------------------2-4-5---------------------

A--------------------------------------------

E--------------------------------------------

E----0-5-5-4-2-4-5-5-7-5-7-5-7-5-4-2-4-5-5--

B--1----------------------------------------

G-------------------------------------------

D-------------------------------------------

A-------------------------------------------

E-------------------------------------------

E----0-5-5-4-2-4-5-5-10-8-7-5-7-5-4---

B--1----------------------------------

G-------------------------------------

D-------------------------------------

A-------------------------------------

E-------------------------------------

Added by tabs-database.com and our distinguished partners

Get this song at:  amazon.com sheetmusicplus.com

Share your thoughts

0 Comments found