Theme Music

Theme Music - Final Fantasy 9 - Beatrix Theme guitar tab

tabs-database.com[http://www.tabs-database.com.com/]

This is the melody from the song Beatrix has playing during her battles.

E--------------------------------------------------

B--------------------------------------------------

G--------0--3-2--------------------------0--3-2----

D--0-2-3---------------0-2--5-3----0-2-3-----------

A------------------1-3-----------------------------

E--------------------------------------------------

E------------------

B-----------2-1----

G----0-1-3---------

D--3---------------

A------------------

E------------------

E----------------------------

B----------------------------

G----0-1-3--5-3-1-0----------

D--3----------------3-1-3----

A----------------------------

E----------------------------

E-----------1-------------1--------------

B----1-2-4----4-2-1---------4-2-1--------

G--3----------------3-1-----------1-3----

D-----------------------4----------------

A----------------------------------------

Added by tabs-database.com and our distinguished partners

Get this song at:  amazon.com sheetmusicplus.com

Share your thoughts

0 Comments found