Theme Music

Theme Music - Final Fantasy 4 Edwards Theme guitar tab

tabs-database.com[http://www.tabs-database.com.com/]

Tuning- Standard EADGBE

This is out of final Fantasy 4. I added a little spice to it, so it's ment to be played fast. Shread this song to ribbons

E-----------------------------------------------------------------

B--12-12-10-8-8-7-6-7------13-13-12-10-10-8-7-8-------

G-----------------------------------------------------------------

D-----------------------------------------------------------------

A-----------------------------------------------------------------

E-----------------------------------------------------------------

E-----------------------------------------------------------------

B--15-15-13-12-13-10-12-13-12-10-12-12-10-10-8-8---

G-----------------------------------------------------------------

D-----------------------------------------------------------------

A-----------------------------------------------------------------

E------------------------------------------------------------------

E------------------------------------------------------------------

B-7-7-12-7-10-8-7-8--7-7-12-7-10-8-7-8--5-7-8-12-10--

G------------------------------------------------------------------

D------------------------------------------------------------------

A------------------------------------------------------------------

E-------------------------------------------------------------------

E--------------------------------------------------------------------

B-8-7-12-13-12-10-8--10-8-10-8-7---------------------------

G--------------------------------------------------------------------

D--------------------------------------------------------------------

A--------------------------------------------------------------------

E---------------------------------------------------------------------

E-------------------------------------------------------------------------

B-7-0-0-0-7-0-0-0-12-0-0-0-7-0-0-0-10-0-0-0-8-0-0-5-7-8-7-5-

G--------------------------------------------------------------------------

D--------------------------------------------------------------------------

A--------------------------------------------------------------------------

E--------------------------------------------------------------------------

E------------------------------------------------------------------------

B-7-0-0-0-7-0-0-0-12-0-0-0-7-0-0-0-10-0-0-0-8-0-0-5-7-8-10-

G-------------------------------------------------------------------------

D-------------------------------------------------------------------------

A-------------------------------------------------------------------------

E------------------------------------------------------------------

B-12-12-10-8-7-12-13-12-10-8--10-8-10-8-7--------------

G-----------------------------------------------------------------

D-----------------------------------------------------------------

A-----------------------------------------------------------------

E-----------------------------------------------------------------

Added by tabs-database.com and our distinguished partners

Get this song at:  amazon.com sheetmusicplus.com

Share your thoughts

0 Comments found