Theme Music

Theme Music - Eye Of The Tiger guitar tab

tabs-database.com[http://www.tabs-database.com.com/]

song=eye of the tiger

theme=rocky

tabber=555and666

this song is really easy to play but you just need to get the rythum.

|---------------------------------------------------

|---------------------------------------------------

|---------------------------------------------------

|--7---7--5--7--7--5--7--7--5--3--------------------

|--7---7--5--7--7--5--7--7--5--3--------------------

|--5---5--3--5--5--3--5--5--3--1--------------------

or you can play it like this

|------------------------

|------------------------

|--5--5--3--5--5--3------

|--5--5--3--5--5--3--6---

|--3--3--1--3--3--1--6---

|--------------------4---

|------------------------

|------------------------

|------------------------ guitar plays this in the back

|------------------------

|------------------------

|-3-3-3-3-3-3-3-3-3-3-3--

or the bass plays this

|--------------------

|--------------------

|--------------------

|-5-5-5-5-5-5-5-5-5--

Added by tabs-database.com and our distinguished partners

Get this song at:  amazon.com sheetmusicplus.com

Share your thoughts

0 Comments found