Theme Music

Theme Music - Extreme Happy Birthday guitar tab

E -----------------------------

B -----------------------------

G -----------------------------

D 3-3-5-3-8-7---3-3-5-3-10-8---

A 3-3-5-3-8-7---3-3-5-3-10-8---

E 1-1-3-1-6-5---1-1-3-1-8--6---

E ----------------------------

B ----------------------------

G ----10-7-3-2----8-8-7-3-5---

D 3-3-10-7-3-2-5--8-8-7-3-5---

A 3-3-8--5-1-0-5--6-6-5-1-3---

E 1-1----------3--------------

Get this song at:  amazon.com sheetmusicplus.com

Share your thoughts

0 Comments found