Theme Music

Theme Music - Exorcist Theme guitar tab

tabs-database.com[http://www.tabs-database.com.com/]

This is my first tab so don't be harsh with me...and rate me good :)

|--0-5-7-3-5-8-10-7-8-7-----5-7-3-5-8-10-7-8-7--|

|-----------------------------------------------|

|-----------------------------------------------|

|-----------------------------------------------|

|-----------------------------------------------|

|-----------------------------------------------|

Its sounds really cool with distortion

|---------------------------------------------------|

|---------------------------------------------------|

|---------------------------------------------------|

|--0-7-9-5-7-10-12-9-10-9-----7-9-5-7-10-12-9-10-9--|

|--0-7-9-5-7-10-12-9-10-9-----7-9-5-7-10-12-9-10-9--|

|--0-7-9-5-7-10-12-9-10-9-----7-9-5-7-10-12-9-10-9--|

Thank you enjoy

Added by tabs-database.com and our distinguished partners

Get this song at:  amazon.com sheetmusicplus.com

Share your thoughts

0 Comments found