Theme Music

Theme Music - Dueling Banjo guitar tab

tabs-database.com[http://www.tabs-database.com.com/]

Artist: Theme Music

Song: Dueling Banjo

This is the way I play it.I tabbed this with help so a lot of thanks to Peter ho played the banjo part on his accoustic.

Oke as you can see, if you seen this tab before of me some parts not

feld good playing them so I changed it.Still no fast part, but a little start to the fast part.

This TAB is constantly changing because I still come up with better sounding pieces.

Its time for an hilly billy moment.

Guitar

E|-----------------------------------------|

B|-----------------------------------------|

G|-------0---------------------------------|

D|-----0-----------------------------------|

A|---2-------------------------------------|

E|-3---------------------------------------|

Banjo

E|-------------3---------------------------|

B|----------0------------------------------|

G|-------0---------------------------------|

D|----0------------------------------------|

A|-0---------------------------------------|

E|-----------------------------------------|

Guitar Banjo Guitar

E|--------------------------------------------------------|

B|---0-0--0-1--0-----3-3--3-5--3-----0-0--0-1--0----------|

G|---0-0--0-0--0-----4-4--4-5--4-----0-0--0-0--0----------|

D|---0-0--0-2--0---------------------0-0--0-2--0----------|

A|--------------------------------------------------------|

E|--------------------------------------------------------|

Banjo

E|-----------------------------------------|

B|-0--1--3--0--1-----0---------------------|

G|----------------2-----0--2---------------|

D|-----------------------------------------|

A|-----------------------------------------|

E|-----------------------------------------|

Guitar

E|-----------------------------------------|

B|-----------------------------------------|

G|-----------------------------------------|

D|------0----------------------------------|

A|-2--3---2--3--0--2----0------------------|

E|-------------------3---------------------|

Banjo

E|-----------------------------------------|

B|-0--1--3--0--1-----0---------------------|

G|----------------2-----0--2---------------|

D|-----------------------------------------|

A|-----------------------------------------|

E|-----------------------------------------|

Guitar

E|-----------------------------------------|

B|-----------------------------------------|

G|-----------------------------------------|

D|------0----------------------------------|

A|-2--3---2--3--0--2----0------------------|

E|-------------------3---------------------|

Banjo

E|-----------------------------------------|

B|-0--1--3--0--1-----0---------------------|

G|----------------2-----0--2---------------|

D|-----------------------------------------|

A|-----------------------------------------|

E|-----------------------------------------|

Guitar

E|-----------------------------------------|

B|-----------------------------------------|

G|-----------------------------------------|

D|-----------------------------------------|

A|---------0-2---2-0-----------------------|

E|-3--3--3-----3---------------------------|

Banjo

E|-----------------------------------------|

B|----------0------------------------------|

G|-0--0--2----0----------------------------|

D|-----------------------------------------|

A|-----------------------------------------|

E|-----------------------------------------|

Guitar

E|-----------------------------------------------------------------|

B|-----------------------------------------------------------------|

G|-----------------------------------------------------------------|

D|----------------------------0------------------------------------|

A|-------------------0--2--3-----3--2------------------------------|

E|----------3--3--3------------------------------------------------|

Banjo

E|-----------------------------------------------------------------|

B|----------------------0--1--3--1--0------------------------------|

G|----------0--0--0--2---------------------------------------------|

D|-----------------------------------------------------------------|

A|-----------------------------------------------------------------|

E|-----------------------------------------------------------------|

Guitar

E|-----------------------------------------------------------------|

B|-----------------------------------------------------------------|

G|-----------------------------------------------------------------|

D|----------------------------0------------------------------------|

A|-------------------0--2--3-----3--2------------------------------|

E|----------3--3--3------------------------------------------------|

Banjo

E|-----------------------------------------------------------------|

B|----------------------0--1--3--1--0------------------------------|

G|----------0--0--0--2---------------------------------------------|

D|-----------------------------------------------------------------|

A|-----------------------------------------------------------------|

E|-----------------------------------------------------------------|

Guitar

E|-----------------------------------------------------------------|

B|-----------------------------------------------------------------|

G|-----------------------------------------------------------------|

D|----------------------------0------------------------------------|

A|-------------------0--2--3-----3--2------------------------------|

E|----------3--3--3------------------------------------------------|

Banjo

E|----------------------0--1--3--1--0------------------------------|

B|----------1--1--1--3---------------------------------------------|

G|-----------------------------------------------------------------|

D|-----------------------------------------------------------------|

A|-----------------------------------------------------------------|

E|-----------------------------------------------------------------|

Guitar

E|-----------------------------------------------------------------|

B|-----------------------------------------------------------------|

G|----------------------------0------------------------------------|

D|-------------------0--2--3-----3--2------------------------------|

A|----------3--3--3------------------------------------------------|

E|-----------------------------------------------------------------|

Banjo

E|-----------------------------------------------------------------|

B|----------------------0--1--3--1--0------------------------------|

G|----------0--0--0--2---------------------------------------------|

D|-----------------------------------------------------------------|

A|-----------------------------------------------------------------|

E|-----------------------------------------------------------------|

Guitar Banjo Guitar

E|--------------------------------------------------------|

B|---0-0--0-1--0-----3-3--3-5--3-----0-0--0-1--0----------|

G|---0-0--0-0--0-----4-4--4-5--4-----0-0--0-0--0----------|

D|---0-0--0-2--0---------------------0-0--0-2--0----------|

A|--------------------------------------------------------|

E|--------------------------------------------------------|

Guitar

E|------------------------------------------------------------------------|

B|-------------0-1-3-0-1---0-------------0---0------------0---------------|

G|-----------------------2---0--2--0-0-2---0----2--0-0--2---0-------------|

D|------------------------------------------------------------------------|

A|------------------------------------------------------------------------|

E|------------------------------------------------------------------------|

Banjo

E|------------------------------------------------------------------------|

B|--3-0-1---0---------------------------------0---0-----------------------|

G|--------2---0-2-----------------------0-0-2---0---2---------------------|

D|-----------------------------------0------------------------------------|

A|------------------------------------------------------------------------|

E|------------------------------------------------------------------------|

Added by tabs-database.com and our distinguished partners

Get this song at:  amazon.com

Share your thoughts

0 Comments found