Theme Music

Theme Music - Doug Theme guitar tab

tabs-database.com[http://www.tabs-database.com.com/]

Nickelodeon\\'s Doug: Theme Song (Easy Version)

Tabbed by: GreenBunny (webmaster at tabs-database.com.com)

I saw the other versions of this song-- this is easier.

It\\'s at a lower pitch, though-- a capo could fix that.

E.

*Standard tuning & Common time

e]----------------------------|-----------------------|-

B]--3----0--------------------|--3----0------------3--|-

G]------------2---------------|------------2----4-----|-

D]-----------------4--2----0--|-----------------------|-

A]----------------------------|-----------------------|-

E]----------------------------|-----------------------|-

e]----------------------------|--------------------2--||

B]--3----0--------------------|--3----0------------3--||

G]------------2---------------|------------2----4--2--||

D]-----------------4--2----0--|--------------------0--||

A]----------------------------|-----------------------||

E]----------------------------|-----------------------||

Added by tabs-database.com and our distinguished partners

Get this song at:  amazon.com sheetmusicplus.com

Share your thoughts

0 Comments found