Theme Music

Theme Music - Dinnerladies guitar tab

tabs-database.com[http://www.tabs-database.com.com/]

Dinnerladies Theme Tune

Written by Victoria Wood and David Firman

This is quite a nice little tune, very easy to play :)

h = Hammer on

p = Pull off

E-----------------------------------------------------------------------------------------------------------

B--17--17--17--15--15--15--17--17--17--15--13--12-----------------------17--17--17--15--15--15--17--17--17--

G--------------------------------------------------14-------------------------------------------------------

D-----------------------------------------------------------------------------------------------------------

A-----------------------------------------------------------------------------------------------------------

E-----------------------------------------------------------------------------------------------------------

E------15----------------------15-------13---12-------------15----17---15---17----15-----13---12---13--12---

B--15------17-----------------------------------------------------------------------------------------------

G-----------------------------------------------------------------------------------------------------------

D-----------------------------------------------------------------------------------------------------------

A-----------------------------------------------------------------------------------------------------------

E-----------------------------------------------------------------------------------------------------------

E--15-------13h15p13--12------------15----17---15---17----15-----13---12---13-------------------------------

B------------------------------------------------------------------------------13---------------------------

G-----------------------------------------------------------------------------------------------------------

D-----------------------------------------------------------------------------------------------------------

A-----------------------------------------------------------------------------------------------------------

E-----------------------------------------------------------------------------------------------------------

I know its short but hey, thats how long it is. Enjoy

:Dave. L

Added by tabs-database.com and our distinguished partners

Get this song at:  amazon.com sheetmusicplus.com

Share your thoughts

0 Comments found