Theme Music

Theme Music - Die Hard Theme guitar tab

tabs-database.com[http://www.tabs-database.com.com/]

E||-------------------------|----------------------|---------------------|

B||-------------------------|----------------------|---------------------|

G||-------------------------|----------------------|---------------------|

D||--0--5--5--5--5----7--8--|----7--8----5--3------|-----0--3---------0--|

A||-------------------------|----------------------|---------------------|

E||-------------------------|----------------------|---------------------|

------------------------|------------------------|------------------------|

------------------------|------------------------|------------------------|

------------------------|------------------------|------------------------|

--5--5--5--5----7--8----|--7--8----10--12--------|-----10--12---------10--|

------------------------|------------------------|------------------------|

------------------------|------------------------|------------------------|

-----------------------------|---------------------------|

-----------------------------|---------------------------|

-----------------------------|---------------------------|

--12--12--12--12----8--10----|--10--10----7--8--8--8--8--|

-----------------------------|---------------------------|

-----------------------------|---------------------------|

------------------------|-----------------------|-----------------------|

------------------------|-----------------------|-----------------------|

------------------------|-----------------------|-----------------------|

----5--7----7--7----10--|--12------10------8----|----7------5--5--5--5--|

------------------------|-----------------------|-----------------------|

------------------------|-----------------------|-----------------------|

--------------------|-------------------|

--------------------|-------------------|

--------------------|-------------------|

----3--5------------|-------------------|

--------------------|-------------------|

--------------------|-------------------|

It's a very easy tab, but it sounds good!! Try it! :)

Added by tabs-database.com and our distinguished partners

Get this song at:  amazon.com sheetmusicplus.com

Share your thoughts

0 Comments found