Theme Music

Theme Music - Deliverance Dueling Banjos Theme guitar tab

Movie: Deliverance

Theme Song: Dueling Banjos

Tabbed by: GreenBunny (gfpbunny5@hotmail.com)

I recommend playing this song while watching

"Jerry Springer"-- for full effect. ;)

E.

*Standard tuning & Common time

e]--------------------|--------------------|--------------|-

B]--0--0--1--0--------|--3--3--5--3--------|--------------|-

G]--0--0--2--0--------|--4--4--5--4--------|--0-----------|-

D]--------------------|--------------------|--------------|-

A]--------------------|--------------------|--------------|-

E]--------------------|--------------------|--------------|-

e].--------------------------|--------------.|-

B].--0--1--3--0--1-----0-----|--------------.|-

G] -----------------2-----0--|--2----------- |-

D] --------------------------|-------------- |-

A].--------------------------|--------------.|-

E].--------------------------|--------------.|-

e]--------------------------|-------------------------|-

B]--------------0-----0-----|--------------0----------|-

G]-----0--0--2-----0-----2--|-----0--0--2-----0-------|-

D]--0-----------------------|--0-----------------4----|-

A]--------------------------|-------------------------|-

E]--------------------------|-------------------------|-

e]--------------------------|-----------------3----||

B]-----------0--1--0--------|-----------------0----||

G]--0--0--2-----------2--0--|--------------0--0----||

D]--------------------------|--4--0--2--4-----0----||

A]--------------------------|-----------------2----||

E]--------------------------|-----------------3----||

!Note! repeat dotted measures.

Get this song at:  amazon.com sheetmusicplus.com

Share your thoughts

0 Comments found