Theme Music

Theme Music - Courage The Cowardly Dog Theme guitar tab

tabs-database.com[http://www.tabs-database.com.com/]

Any beginner can play this and it was also easy to tab

E|-3-3-3-3-3-0---------|

B|---------------------|

G|---------------------|

D|---------------------|

A|---------------------|

E|---------------------|

E|-3-3-3-3-3-0---------|

B|---------------------|

G|---------------------|

D|---------------------|

A|---------------------|

E|---------------------|

E|---------------------|

B|-3-3-3-3-3-0---------|

G|---------------------|

D|---------------------|

A|---------------------|

E|---------------------|

E|---------------------|

B|-3-3-3-3-3-0---------|

G|---------------------|

D|---------------------|

A|---------------------|

E|---------------------|

Added by tabs-database.com and our distinguished partners

Get this song at:  amazon.com sheetmusicplus.com

Share your thoughts

0 Comments found