Theme Music

Theme Music - Cool Beach Song guitar tab

tabs-database.com[http://www.tabs-database.com.com/]

Submitted by your lord and master: Terminator90210

Very fun, try dampened/ dead notes on the last chord before the sliding

part, songs more "beachy"

--------------------------------------------------------

--------------------------------------------------------

--------------------------------------------------------

-5/7-7-7-7-7-7-7-5/7-7-7-----7-7-7----------------------

-5/7-7-7-7-7-7-7-5/7-7-7-----7-7-7----------------------

-3/5-5-5-5-5-5-5-3/5-5-5-----5-5-5---------------------- x2

/\\

Miniature, 1/4 second

Rest, maybe a dead note

--------------------------------------------------------

--------------------------------------------------------

-5/7-7-7-7-7-7-7-5/7-7-7-----7-7-7----------------------

-5/7-7-7-7-7-7-7-5/7-7-7-----7-7-7----------------------

-3/5-5-5-5-5-5-5-3/5-5-5-----5-5-5----------------------

-------------------------------------------------------- x1

--------------------------------------------------------

--------------------------------------------------------

--------------------------------------------------------

-5/7-7-7-7-7-7-7-5/7-7-7-----7-7-7----------------------

-5/7-7-7-7-7-7-7-5/7-7-7-----7-7-7----------------------

-3/5-5-5-5-5-5-5-3/5-5-5-----5-5-5---------------------- x1

--------------------------------------------------------

--------------------------------------------------------

-7/9-9-9-9-9-9-9-5/7-7-7-----7-7-7----------------------

-7/9-9-9-9-9-9-9-5/7-7-7-----7-7-7----------------------

-5/7-7-7-7-7-7-7-3/5-5-5-----5-5-5----------------------

-------------------------------------------------------- x1

--------------------------------------------------------

--------------------------------------------------------

--------------------------------------------------------

-5/7-7-7-7-7-7-7-5/7------------------------------------

-5/7-7-7-7-7-7-7-5/7------------------------------------

-3/5-5-5-5-5-5-5-3/5------------------------------------

Very very fun, PLEASE play before you think this is a bad tab, i

garantee you you will like this song. or at least acknowledge it as

a fun song

Added by tabs-database.com and our distinguished partners

Get this song at:  amazon.com sheetmusicplus.com

Share your thoughts

0 Comments found