Theme Music

Theme Music - Conan The Barbarian guitar tab

tabs-database.com[http://www.tabs-database.com.com/]

Hey, this is my first post so yeah, hope you like.

I tabbed these couple of riff's from listening to the Conan movies, so

all credit goes to Conan, lol.

|---------------------|---------------------|---------------------|

|---------------------|---------------------|---------------------|

|---------------------|---------------------|---------------------|

|---------------------|---------------------|---------------------|

|---0----0-----0-----0|---0----0-----0-----0|---0----0-----0-----0|

|--0-0------0-----0---|--0-0------0-----0---|--0-0------0-----0---|

|---------------------|--0---5---0---5---7--|-8---5-7-8-7-5--7-7-7|

|---------------------|---------------------|---------------------|

|---------------------|---------------------|---------------------|

|---------------------|---------------------|---------------------|

|---0----0-----0-----0|---------------------|---------------------|

|--0-0------0-----0---|---------------------|---------------------|

|--5--3--3--5-5-------|

|---------------------|

|---------------------|

|---------------------|

|---------------------|

|---------------------|

Added by tabs-database.com and our distinguished partners

Get this song at:  amazon.com sheetmusicplus.com

Share your thoughts

0 Comments found