Theme Music

Theme Music - Charlie Brown Song guitar tab

tabs-database.com[http://www.tabs-database.com.com/]

The beginning part is on a piano, but this sounds pretty good

-----------------------------------------------------

-----------------------------------------------------

-----------------------------------------------------

----7--9---7---------7--9---7------------------------

---7--9---7--9-7----7--9---7--9-7--------------------

--7------7---------7------7--------------------------

Verse

part 1

-----------------------------------------------------

-----------------------------------------------------

-12-14-16-16-14-12-14-12----12-14-16-16--------------

-----------------------------------------------------

-----------------------------------------------------

-----------------------------------------------------

part 2

-----------------------------------------------------

-----------------------------------------------------

-12-14-16-16-14-12-14-12---12-14-14-----12-14-14-----

-----------------------------------------------------

-----------------------------------------------------

-----------------------------------------------------

Break

-------------------------------------------------------

-------------------------------------------------------

-16-14-14--16-14-14-16-14-14-16-14-14--14-12-12-12--14-

------------------------------------------------------- do this multiple times

-------------------------------------------------------

-------------------------------------------------------

parts 1 and 2 are polayed over beginning part

part 1

part 2

End

Added by tabs-database.com and our distinguished partners

Get this song at:  amazon.com sheetmusicplus.com

Share your thoughts

0 Comments found