Theme Music

Theme Music - Carol Of The Bells guitar tab

tabs-database.com[http://www.tabs-database.com.com/]

guitar 1

e|-1--0-1----1--0-1----1--0-1----1--1-0----1--0-1----1--0-1----1--0-1----|

B|--------3---------3---------3---------3---------3---------3---------3--|

G|-----------------------------------------------------------------------|

D|-----------------------------------------------------------------------|

A|-----------------------------------------------------------------------|

E|-----------------------------------------------------------------------|

|guitar 2 | x8

e|-----------------------------------------------------------------------|

B|-----------------------------------------------------------------------|

G|-----------------------------------------------------------------------|

D|-0---------------------------------------------------------------------|

A|-----------3---------1---------0---------1---------0-------------------|

D|-------------------------------------------------------------0---------|

guitar 1

e|-10--9-10-----10--9-10-----10--9-10-----10--9-10-----10--9-10-----------\\

B|----------12-----------12-----------12-----------12-----------12-------- \\

G|------------------------------------------------------------------------ |

D|------------------------------------------------------------------------ |

A|------------------------------------------------------------------------ |

E|------------------------------------------------------------------------ |

|guitar 2 |

e|------------------------------------------------------------------------ |

B|------------------------------------------------------------------------ |

G|------------------------------------------------------------------------ |

D|-12-----------11-------------------------------------------------------- |

A|---------------------------13-----------12------------13---------------- |

D|------------------------------------------------------------------------ |

\\

guitar 1 / x4

---10--9-10-----10--9-10-------------------------------------------------| |

------------12-----------12----------------------------------------------| |

-------------------------------------------------------------------------| |

-------------------------------------------------------------------------| |

-------------------------------------------------------------------------| |

-------------------------------------------------------------------------| |

guitar 2 | |

-------------------------------------------------------------------------| |

-------------------------------------------------------------------------| |

-------------------------------------------------------------------------| |

-------------------------------------------------------------------------| |

---12--------------------------------------------------------------------| /

----------------12-------------------------------------------------------|/

guitar 1

e|-19--19-19-17-15-17----------------------------------------------------|

B|--------------------19--19-19-17--15-17-19-----------------------------|

G|-------------------------------------------16-16-16-16-16--------------|

D|-----------------------------------------------------------------------|

A|-----------------------------------------------------------------------|

E|-----------------------------------------------------------------------|

guitar 1

e|-----------------------------------------------------------------------|

B|----------------16--14--12-12-12-12------------------------------------|

G|-------15-16-18--------------------------------------------------------|

D|-16-18-----------------------------------------------------------------| x2

A|-----------------------------------------------------------------------|

E|-----------------------------------------------------------------------|

and thats it basically unless you wanna repeat the first part or something

if you have any comments email me at webmaster at tabs-database.com.com

Added by tabs-database.com and our distinguished partners

Get this song at:  amazon.com sheetmusicplus.com

Share your thoughts

0 Comments found