Theme Music

Theme Music - Captain Pugwash Theme guitar tab

tabs-database.com[http://www.tabs-database.com.com/]

Song: Captain Pugwash Theme

Tabbed By: \\JEB/,

F F C C

-----1-1------------1------3-3--------------------

-----1-1-----------1-1-----1-1------------1-------

-----2-2---3-2---2-----2---0-0----------0---0-----

-----3-3-------3---------3-2-2--3-2---2-------2---

-3-3-3-3-------------------3-3------3-----------3-

--------------------------------------------------

-1-1------------1-1--0-3-1-0---1-0----------------

-1-1----------1--------------3-----3-1-1-1--------

-2-2--3-2---2-------------------------------------

-3-3------3---------------------------------------

-3-3----------------------------------------------

--------------------------------------------------

---------------0-1-0------------------------------

-----1-1---1h3-------3-1---------------1-3p1------

-2/3---------------------3\\2---------3-------3\\2--

--------------------------------------------------

--------------------------------------------------

--------------------------------------------------

-----------------------1-1----------------------1-

-----------------------1-1----1-----------------1-

--0-------0------------2-2--2---3-2-0-3-2-0---2-2-

----3-2/3---3-2----0-2-3-3------------------3---3-

----------------3------3-3----------------------3-

--------------------------------------------------

Added by tabs-database.com and our distinguished partners

Get this song at:  amazon.com sheetmusicplus.com

Share your thoughts

0 Comments found