Theme Music

Theme Music - Can-Can guitar tab

tabs-database.com[http://www.tabs-database.com.com/]

Title: Can-Can

Artist: Theme Song

Tabbed by: Smallfry645 (webmaster at tabs-database.com.com)

Very easy song to play if you got some fast fingers on you. Enjoy.

E--------------------------------------------------------------------------------------

B--------------------------------------------------------------------------------------

G-----------------------------------------------------------2--1------------------------

D--------------------2--2--2--4-----------------------------------4--2--0--------------

A--0--0--2--5--4--2--------------4--5--2--2--2--5--4--2--0-----------------4--2--0-----

E--------------------------------------------------------------------------------------

E--------------------------------------------------------------------------------------

B--------------------------------------------------------------------------------------

G--------------------------------------------------------------------------------------

D--------------------2--2--2--4-----------------------------2--------------------------

A--0--2--5--4--2-----------------4--5--2--2--2--5--4--2--0-----2--4--0-----------------

E--------------------------------------------------------------------------------------

Added by tabs-database.com and our distinguished partners

Get this song at:  amazon.com sheetmusicplus.com

Share your thoughts

0 Comments found