Theme Music

Theme Music - Brilliant Little Surfing Riff guitar tab

tabs-database.com[http://www.tabs-database.com.com/]

Beach Boys

1-------------------------------------------

2-------------------------------------------

3-0-3-4-5-5-5-3-0-0-3-4-5-5-5-3-0-0-

4--------------------------------------------

5--------------------------------------------

6--------------------------------------------

1-----------------------------------------

2-----------------------------------------

3-3-4-5-5-5-3-0-0-3-4-5-5-5-3-0-

4-----------------------------------------

5-----------------------------------------

6-----------------------------------------

1-------------------------------------------

2-----4-5-6-6-6-4------4-5-6-6-6-4---

3-5------------------5-5---------------5-

4------------------------------------------

5------------------------------------------

6------------------------------------------

1------------------------------------------

2-----------------------------------------

3-0-3-4-5-5-5-3-0-0-3-4-5-5-5-3-0-

4-----------------------------------------

5-----------------------------------------

6----------------------------------------

1----------------------------------------

2----6-7-8-8-6----6-8-6-6-6-4-----

3-7--------------7-----------------5--

4---------------------------------------

5---------------------------------------

6---------------------------------------

1---------------------------------

2--------------------------------

3-0-3-4-5-5-5-3-0-0-5-3-0--

4--------------------------------

5--------------------------------

6--------------------------------

Now repeat it as many times as you want, IT’S A BRILLIANT RIFF. Don’t forget it’s fast.

Added by tabs-database.com and our distinguished partners

Get this song at:  amazon.com sheetmusicplus.com

Share your thoughts

0 Comments found