Theme Music

Theme Music - Bret Hart Wwf guitar tab

tabs-database.com[http://www.tabs-database.com.com/]

MUSIC X TABS

ARTIST: World Wrestling Federation

TITLE: Bret Hart's Theme

TUNING: Standard

TABBER: Al

(webmaster at tabs-database.com.com)

Rythm Guitar

E||-------------------------|

B||-------------------------|

G||-------------------------|

D||-------------------------|

A||-2-2-2-2-2-2-2-2-2-2-2-2-|

E||-0-0-0-0-0-0-0-0-0-0-0-0-|

>>Play that Same Rhythm through the Whole Duration

Lead Guitar

a. b. c. d.

E||------------|-1----2---2-0-|-7-10-7-12-7-10-7-12-7-10-7-12-10-7-|-3---2---2-3-|

B||------------|-0----3---3---|------------------------------------|-3---3---3---|

G||-------0----|--------------|------------------------------------|-------------|

D||-0--2-----2-|--------------|------------------------------------|-------------|

A||------------|--------------|------------------------------------|-------------|

E||------------|--------------|------------------------------------|-------------|

Parts:

a - The Main part of the theme

b - The Break before the little solo part

c - Solo part

d - Break #2 before you go into the solo again.

Added by tabs-database.com and our distinguished partners

Get this song at:  amazon.com sheetmusicplus.com

Share your thoughts

0 Comments found