Theme Music

Theme Music - Boogie guitar tab

tabs-database.com[http://www.tabs-database.com.com/]

brought to you by dude1258

E------------------------------------------

B------------------------------------------

G------------------------------------------

D-----00-22-33-22-00------00-22-33-22-00---

A---22--------------22--22--------------22-

E-33------------------33-------------------

E------------------------------------------

B------------------------------------------

G-----00-22-33-22-00-----------------------

D---22--------------22----00-22-33-22-00---

A-33--------------------22---------------22

E---------------------33-------------------

E------------------------------------------

B------------------------------------------

G----------------------------------2~------

D-00-22-33-22-00-------------00-22---------

A----------------33-22-00--22--------------

E------------------------33----------------

double pick it, single pick it fast and youll play the background to the "VONAGE" commercials (without the woo hoo woo hoohoo)

Added by tabs-database.com and our distinguished partners

Get this song at:  amazon.com sheetmusicplus.com

Share your thoughts

0 Comments found