Theme Music

Theme Music - Blues Riff guitar tab

tabs-database.com[http://www.tabs-database.com.com/]

----------------------------------------------------------------------------------------------------- -

----------------------------------------------------------------------------------------------------- -

----------------------------------------------------------------0--2--3--2--0---------------------

------0--2--3--2--0-----------------0--2--3--2--0-------------2----------------2--------------

---2--------------------2---------2--------------------2----3---------------------------------------

3------------------------------3-------------------------------------------------------------------

-------------------------------------------------------------------------------------------------------

-------------------------------------------------------------------------------------------------------

-------------------------------------------2----4-----------------------------------------------------

------------0--2--3--2--0---------0--4-----------------2--3----5----------0--2--3--2--0---------

--------2-------------------2-----------------------3-------------------2--------------------2------

----3-----------------------------------------------------------------3--------------------------

Added by tabs-database.com and our distinguished partners

Get this song at:  amazon.com

Share your thoughts

0 Comments found