Theme Music

Theme Music - Blink 182 Adams Song guitar tab

blink 182

Adam's song

dadgbe

___________________ _________________

intro clean |1st ending |2nd ending |

e|--------------|---------------|----------------|--------------------|------------------|

b|--------------|---------------|----------------|--------------------|------------------|

g|--------------|---------------|----------------|-------------------*|------------------|

d|---2------2---|----2------2---|---2-------2----|---2--------2-------|---2--------2-----|

a|-0---3--0---3-|------3------3-|-----3-------3--|-----3---------3---*|------3--------3--|

d|--------------|--5------5-----|-3-------3------|-0-------0----------|-0---------3------|

pick and let all the tones ring out through the whole song

verse

e------------------------------------------------------------------

b------------------------------------------------------------------

g------------------------------------------------------------------

d------------------------------------------------------------------

a-3-3-3-3-3-3-3-3------------------0-0-0-0-0-0-0-0-----------------

d------------------3-3-3-3-3-3-3-3-----------------3-3-3-3-3-3-3-3-

pale mute

Interlude before Chorus

e|--------------------|------------------|-----------------|--------------------|

b|--------------------|------------------|-----------------|--------------------|

g|----0----------0----|----2-------2-----|-----------------|--------------------|

d|-------3----------3-|--0---3--0-----3--|-----2------2----|-----2-----------2--|

a|--3----------3------|------------------|---0---3--0---3--|-------3-----------3|

d|--------------------|------------------|-----------------|---3-----------3----|

Chorus2x

e------------|

b------------|

g--5--7--2---|

d--5--7--2--3|

a--3--5--0--3|

d-----------3|

play each power chord 8x

1st time clean

2nd distorted

guitar interlude

e|-------------------------------------------------------------|

b|-------------------------------------------------------------|

g|------5----5---9----5-----0----9-----5----5---9---5---0---5--|

d|-------------------------------------------------------------|

a|-------------------------------------------------------------|

d|-------------------------------------------------------------|

piano interlude for guitar

e|8-10-----8-10-8-13-12-8--------8-10---------10---------8-----12-13-15--|

b|------8--------------------8---------8----8------8---------------------|

g|-----------------------------------------------------------------------|

d|-----------------------------------------------------------------------|

a|-----------------------------------------------------------------------|

d|-----------------------------------------------------------------------|

and at the end of the interlude play

e--------|

b-------1|

g--------|

d--------|

a-33-----|

d--------|

play till 3:32 secs get faster and finish off by playing the chorus

play it with the song and ull see its perfect

thats it please rate it

Get this song at:  amazon.com sheetmusicplus.com

Share your thoughts

0 Comments found