Theme Music

Theme Music - Black Books Theme guitar tab

tabs-database.com[http://www.tabs-database.com.com/]

Great show, Great theme song.

Standard Tuning. Listen to the music to get the right rhythm.

||---------------------|------------------------|--------------------------|--------------------|

||---------------------|------------------------|--------------------------|--------------------|

||------------------7--|-5----------------------|--------------------------|--------------------|

||---------------------|--------7--8---10-------|----------8--8---10---8---|--8/7---------------|

||-17/---5--6--5-------|------------------------|--------------------------|--------------------|

||---------------------|------------------------|--------------------------|--------------------|

|-----------------------|----------------------|--------------------------|---------------------|

|-----------------------|----------------------|----------8--8---10----8--|---8/7---------------|

|-------------5---------|-----8----7---7/10----|----------8--8---10----8--|---8/7----------7--7-|

|-------------5--7--8---|----------------------|--------------------------|---------------------|

|---3--5--6-------------|----------------------|--------------------------|---------------------|

|-----------------------|----------------------|--------------------------|---------------------|

|----------------------|---------------------------------------||

|--8-------------------|---------------------------------------||

|-----7----------------|---------------------------------------||

|--------8----10---8---|--5-----------------7---------------7--||

|----------------------|---------------5-----------17/---7-----||

|----------------------|---------------------------------------||

[^Quietly...]

Added by tabs-database.com and our distinguished partners

Get this song at:  amazon.com sheetmusicplus.com

Share your thoughts

0 Comments found