Theme Music

Theme Music - Beavis And Butthead Theme guitar tab

tabs-database.com[http://www.tabs-database.com.com/]

This is the real way to play the beavis and butthead theme song so enjoy

|-------------------------------------------------------------------------|

|------10-------8-----------8--------10---10--10----8-----8---7-----------|

|---------9-----------7--7--9---------9----9---9----9-----7---7---2-----/-|

|---7---------7-----7-----------7--7--------------7--------------------/--|

|---------------------------------------------------------------------3---|

|-------------------------------------------------------------------------|

|----------------------------------------------------------------------|

|----------------------------------------------------------------------|

|------2--2-------------2--2---------/----2--2--------2--2-----------/-|

|------2--2-------------2--2--------/-----2--2--------2--2----------/--|

|---0-----------------0--------0---3----0-----------0----------0---3---|

|----------------------------------------------------------------------|

|---------------------------------------/-------------/---|

|--------------------5---------------7/-/---7------5/-/---|

|--------------------5---------------7/-----7------5/-----|

|--------------------5---------------------------------7--|

|---------------------------------------------------------|

|---------------------------------------------------------|

Added by tabs-database.com and our distinguished partners

Get this song at:  amazon.com sheetmusicplus.com

Share your thoughts

0 Comments found