Theme Music

Theme Music - Auld Lang Syne(classic) guitar tab

tabs-database.com[http://www.tabs-database.com.com/]

Hi here commes a very old song : auld lang syne

If u have any suggestions or questions plz e-mail me at: webmaster at tabs-database.com.com

Or my msn is :webmaster at tabs-database.com.com

And ICQ :260261904

Tuning :ebgdae

Bb F Bb Eb Bb F

e|--|--------|---------|-------|--------|--------|---------|

b|--|--------|---------|-------|--------|--------|---------|

g|--|--------|---------|-------|--------|--------|---------|

d|--|--------|---------|-----5-|7-----7-|5-------|---------|

a|--|------7-|5---5-7h5|---7---|--------|---77---|5---5-7h5|

e|3-|8-—78---|---8-----|8—8----|--------|------8-|---8-----|

Eb F7 Bb Bb F Bb Eb

e|--------|-------|--------|----------|--------|-------|

b|--------|-------|--------|----------|--------|-------|

g|--------|-------|--------|----------|--------|-----5-|

d|--------|-----7-|5-------|------7---|5-----5-|7------|

a|--------|-------|---77---|5---5-----|---77---|-------|

e|8--55-3-|8------|------8-|---8------|--------|-------|

Bb F Eb F7 Bb

e|--------|--------|-------|------|

b|--------|--------|-------|------|

g|--------|--------|-------|------| the end!!!!

d|5-------|--------|-------|------|

a|---77---|5---5-75|-------|------|

e|------8-|---8----|8—55-3-|8-----|

that was it! Hope u en eyoj it

Added by tabs-database.com and our distinguished partners

Get this song at:  amazon.com sheetmusicplus.com

Share your thoughts

0 Comments found