Theme Music

Theme Music - Arabian Theme guitar tab

tabs-database.com[http://www.tabs-database.com.com/]

E-------------------------------------------------------

B-------------------------------------------------------

G-------------------------------------------------------

D------------------------------------2------------------

A--0-----2--3--2---0-------0----2--3----2--3--0---------

E-------------------------------------------------------

E-------------------------------------------------------

B-------------------------------------------------------

G-------------------------------------------------------

D------------------------------------2------------------

A--0-----2--3--2---0-------0----2--3----2--3--0---------

E-------------------------------------------------------

Thats it easy stuff

Added by tabs-database.com and our distinguished partners

Get this song at:  amazon.com sheetmusicplus.com

Share your thoughts

0 Comments found