Theme Music

Theme Music - Alton Towers Theme guitar tab

tabs-database.com[http://www.tabs-database.com.com/]

tabbed by: LAWRENCE TUCKETT

contact: webmaster at tabs-database.com.com

date: 31 DECEMBER '03

time: 2:59p.m. - 3:16p.m.(gmt)

tuning: E-A-D-G-B-e (low to high)

~ bend string

pm - palm mute

e|------------------------------|

B|------------------------------|

G|------------------------------| to bend the open string, put a finger on the string behind

D|-------0-2---2~-1---1~-0---0~-| the nut and push down gently

A|-0-2-3-----3------2------1----|

E|------------------------------|

e|---------------------------|

B|---------------------------|

G|---------------2-0-------0-|

D|-------0-2---2-----2---2---|

A|-0-2-3-----3---------3-----|

E|---------------------------|

e|------------------------------|

B|---------5---5~-4---4~-3---3~-|

G|---4-5-7---5------4------3----|

D|-7----------------------------|

A|------------------------------|

E|------------------------------|

pm------|

e|---------------5-----------|

B|---------5---5---8-5---5-8-|

G|---4-5-7---5---------5-----|

D|-7-------------------------|

A|---------------------------|

E|---------------------------|

pm------|

any suggestions, comments, mistakes, abuse - e-mail me (e-mail at the top of the page)

PLEASE RATE THIS TAB!!! Thanx,

Law

Added by tabs-database.com and our distinguished partners

Get this song at:  amazon.com sheetmusicplus.com

Share your thoughts

0 Comments found