Theme Music

Theme Music - Alton Towers guitar tab

tabs-database.com[http://www.tabs-database.com.com/]

The Alton Towers theme song was composed by Edvard Grieg. This sounds very good played fast on acoustic.

Normal Tuning EADGBE

|---------0---0---|-----------------|---------0---0-5-|-3-0---0-3-------|

|---0-1-3---1-----|-4---4---3---3---|---0-1-3---1-----|-----1-----------|

|-2---------------|---4-------3-----|-2---------------|-----0-------0---| This x2

|-----2-------2---|-----2-------2---|-----2-------2---|-----------------|

|-0---------0-----|-0-------0-------|-0-------0-------|-3-------3-------|

|-----------------|-----------------|-----------------|-----------------|

|-----------------|-----------------|-----------------|

|---------0---0---|-1---1---0---0---|---------0---0---|

|-----1-2---1-----|---2-------1-----|-----1-2---1-----|

|-2-4-------------|-----------------|-2-4-------------|

|-----2-------2---|-----3-------2---|-----2-------2---|

|-0-------0-------|-0-------0-------|-0-------0-------|

|-----------------|---------0---0---|-----------------|

|-1---1---0-------|---0-1-3---1-----|-4---4---3---3---|

|---2-------------|-2---------------|---4-------3-----|

|-----------------|-----2-------2---|-----2-------2---|

|-----3-------2---|-0-------0-------|-0-------0-------|

|-0-------0-------|-----------------|-----------------|

|---------0---0---|-----------------|

|---0-1-3---1-----|-------0---------|

|-2-------------2-|-1---1---2-------|

|-----2-------2---|---2-------------|

|-0-------0-------|---------0---0---|

|-----------------|-0---------------|

This is quite a hard tab to play at the right speed but with

practice it sounds impressive.

fozzie

Added by tabs-database.com and our distinguished partners

Get this song at:  amazon.com sheetmusicplus.com

Share your thoughts

0 Comments found