Theme Music

Theme Music - Adams Family guitar tab

tabs-database.com[http://www.tabs-database.com.com/]

Adams Family

e---------------|--------------|

b---------------|--------------|

g-----4-------2-|-----2--------|

d---5---5-2-----|-5-4---4-----5|

a-5---------3---|---------5-2--|

E---------------|--------------|

e---------------|--------------|

b---------------|--------------|

g-----4---------|--------------|

d---5---5-2---2-|-5-4---2-4-5--|X2

a-5---------3---|-----5--------|

E---------------|--------------|

e-------------------|-----------

b-------------------|-----------

g-------------------|-----------

d-5---2-4-5---2-4-5-|-X2--------

a---5-------5-------|----5~-----

E-------------------|-----------

By John Black

Added by tabs-database.com and our distinguished partners

Get this song at:  amazon.com sheetmusicplus.com

Share your thoughts

0 Comments found