Theme Music

Theme Music - A Nightmare On Elm Street Theme guitar tab

tabs-database.com[http://www.tabs-database.com.com/]

GuitarManSteveo

Standard Tuning

A Nightmare On Elm Street Theme

High E-------5--4----5--0--1-------------------------------------------

B----3------------------------------------------------------------

G-2----------------------2--2-------------------------------------

D-----------------------------------------------------------------

A-----------------------------------------------------------------

Low E-----------------------------------------------------------------

High E-------5--4----0--1--5--6----------------------------------------

B----3----------------------2-------------------------------------

G--2--------------------------------------------------------------

D-----------------------------------------------------------------

A-----------------------------------------------------------------

Low E-----------------------------------------------------------------

High E-------5--4----5--0--1--7--8--1----------------------------------

B----3------------------------------------------------------------

G-2---------------------------------------------------------------

D-----------------------------------------------------------------

A-----------------------------------------------------------------

E-----------------------------------------------------------------

Added by tabs-database.com and our distinguished partners

Get this song at:  amazon.com sheetmusicplus.com

Share your thoughts

0 Comments found