Theme Music

You Are My Sunshine Tabs



More from Theme Music

Theme Music Tabs

tabs-database.com[http://www.tabs-database.com.com/]
You Are My Sunshine

Tabbed By: J.r



e-------------------------------------------------------5--5------------

B-----------------5---5--5-----5------------------5--6--------8--6--5---

G--------5---7--------------7------5---5--5--7--------------------------

D-----5-----------------------------------------------------------------

A-----------------------------------------------------------------------

E-----------------------------------------------------------------------





e---------------------------5--5----------------------------------------

B-------------------5--6---------8--6--5--------------5--6---------5----

G----------5--7---------------------------5---5---7----------7--7------5

D-----------------------------------------------------------------------

A-----------------------------------------------------------------------

E-----------------------------------------------------------------------

Added by tabs-database.com and our distinguished partners
Get this song at amazon.com      Ebay     Ringtones Ringtones  


Learn to play: Songwriting, Piano, Harmonica, Guitar

Related Theme Music Tabs

Red Vs Blue Theme tabs
I Bet You Will tabs
Rise tabs
Pulp Fiction tabs
Futurama tabs
Harry Bo tabs
Mortal Kombat Theme tabs
Harry Potter-nimbus 2000 tabs
When The Saints Go Marching In tabs
Perfect Dark tabs
Disapointment Thingy tabs
Schindlers List tabs
Batman tabs
Desperado tabs
Halo Riff tabs
Harry Potter Theme tabs
Mcdonalds Theme Song tabs
Power Puff Girls Theme tabs
Skip To My Lou tabs
Clown Music tabs


Guitar Tabs









All tabs are property and copyright of their owners. All tabs provided for educational purposes only. Privacy Policy, DMCA