Theme Music

When The Saints Go Marching In Tabs



More from Theme Music

Theme Music Tabs



Song: When the saints go marching in
Tabber: Lowell smith
This is my second tab yeh! I’m the best
p.s keep on rageing
I also did the rise theme
This tab is better than just a guys

E-----------------------------------------------------------------------
B-----------------------------------------------------------------------
G-----------------------------------------------------------------------
D--------2--3--5-------------2--3--5---------------------------------
A----3--------------------3--------------------------------------------
E-----------------------------------------------------------------------

E-----------------------------------------------------------------------------------------------------
B-----------------------------------------------------------------------------------------------------G-----------------------------------------------------------------------------------------------------
D------2--3--5--------2-----2-----------------------------------------------------------------------
A---3---------------------3--------5-----------------------------------------------------------------
E--------------------------------------------------------------------------------------------- --------

E------------------------------------------------------------------------------------------------
B------------------------------------------------------------------------------------------------
G------------------------------------------------------------------------------------------------
D----2--0-----------2--5--5--3-----2--3--5--2-----------------------------------------------
A------------3--3------------------------------------3--5--3----------------------------------
E------------------------------------------------------------------------------------------------


Get this song at amazon.com      Ebay     Ringtones Ringtones  


Learn to play: Songwriting, Piano, Harmonica, Guitar

Related Theme Music Tabs

Alton Towers tabs
Metal Gear Solid Theme tabs
Batman tabs
Halo Riff tabs
Frere Jacques tabs
Harry Potter Title Theme tabs
In The Jungle tabs
Mxc Theme Song tabs
National Antheme tabs
Batman Old School tabs
Peter Gunn Theme tabs
Courage The Cowardly Dog Theme tabs
Oompa Lumpa tabs
Halloween Movie Theme tabs
Drunk Sailor tabs
Angel Theme tabs
Skip To My Lou tabs
Ned's Declassified School Survival Guide Theme tabs
Dallas Theme tabs
Braveheart Theme tabs


Guitar Tabs









All tabs are property and copyright of their owners. All tabs provided for educational purposes only. Privacy Policy, DMCA