Theme Music

Twinkel Twinkle Tabs



More from Theme Music

Theme Music Tabs



-----------------------------
-----------------------------
-----------------------------
-----------------------------
-------9--9--11--11--9--7-7--
-7--7------------------------

-----------------------------
-----------------------------
-----------------------------
-----------------------------
-6--6--4--4--2--6--6--4--4---
-----------------------------

-----------------------------
-----------------------------
-----------------------------
-----------------------------
-2--2--0--6--6--4--4--2--2-0-
-----------------------------


Get this song at amazon.com      Ebay     Ringtones Ringtones  


Learn to play: Songwriting, Piano, Harmonica, Guitar

Related Theme Music Tabs

Peanuts Theme tabs
Shrek tabs
America tabs
Hockey Night In Canada Theme tabs
Aladdin Theme tabs
Misc Riff tabs
Inu-yasha (outro - Deep Forest) tabs
Deliverance Dueling Banjos Theme tabs
Friends Theme Song tabs
Happy Birthday With A Rock Twist tabs
Auld Lang Zyne tabs
Peter Gun tabs
Napoleon Dynamite tabs
Carling Advert tabs
3rd Rock From The Sun Theme tabs
London Bridge Is Falling Down tabs
Awsome Blues Song tabs
Friends Theme tabs
Oompa Lumpa tabs
Black Books Theme tabs


Guitar Tabs









All tabs are property and copyright of their owners. All tabs provided for educational purposes only. Privacy Policy, DMCA